  0
SECTION
  2
HEADER
  9
$ACADVER
  1
AC1009
  9
$INSBASE
 10
247.40134
 20
336.152726
 30
0.0
  9
$EXTMIN
 10
245.0007807086295
 20
336.152726
 30
0.0
  9
$EXTMAX
 10
418.40134
 20
374.152726
 30
0.0
  9
$LIMMIN
 10
0.0
 20
0.0
  9
$LIMMAX
 10
841.0
 20
594.0
  9
$ORTHOMODE
 70
     0
  9
$REGENMODE
 70
     0
  9
$FILLMODE
 70
     1
  9
$QTEXTMODE
 70
     0
  9
$MIRRTEXT
 70
     0
  9
$DRAGMODE
 70
     2
  9
$LTSCALE
 40
1.0
  9
$OSMODE
 70
     1
  9
$ATTMODE
 70
     1
  9
$TEXTSIZE
 40
3.5
  9
$TRACEWID
 40
0.1
  9
$TEXTSTYLE
  7
STANDARD
  9
$CLAYER
  8
ITEM_50
  9
$CELTYPE
  6
BYLAYER
  9
$CECOLOR
 62
   256
  9
$DIMSCALE
 40
1.0
  9
$DIMASZ
 40
2.0
  9
$DIMEXO
 40
1.0
  9
$DIMDLI
 40
8.0
  9
$DIMRND
 40
0.0
  9
$DIMDLE
 40
0.0
  9
$DIMEXE
 40
2.0
  9
$DIMTP
 40
0.1
  9
$DIMTM
 40
0.1
  9
$DIMTXT
 40
3.5
  9
$DIMCEN
 40
2.0
  9
$DIMTSZ
 40
0.0
  9
$DIMTOL
 70
     0
  9
$DIMLIM
 70
     0
  9
$DIMTIH
 70
     0
  9
$DIMTOH
 70
     0
  9
$DIMSE1
 70
     0
  9
$DIMSE2
 70
     0
  9
$DIMTAD
 70
     1
  9
$DIMZIN
 70
     8
  9
$DIMBLK
  1

  9
$DIMASO
 70
     1
  9
$DIMSHO
 70
     1
  9
$DIMPOST
  1

  9
$DIMAPOST
  1

  9
$DIMALT
 70
     0
  9
$DIMALTD
 70
     2
  9
$DIMALTF
 40
25.39999999999999
  9
$DIMLFAC
 40
1.0
  9
$DIMTOFL
 70
     1
  9
$DIMTVP
 40
0.0
  9
$DIMTIX
 70
     0
  9
$DIMSOXD
 70
     0
  9
$DIMSAH
 70
     0
  9
$DIMBLK1
  1

  9
$DIMBLK2
  1

  9
$DIMSTYLE
  2
*UNNAMED
  9
$DIMCLRD
 70
     0
  9
$DIMCLRE
 70
     0
  9
$DIMCLRT
 70
     0
  9
$DIMTFAC
 40
1.0
  9
$DIMGAP
 40
0.09
  9
$LUNITS
 70
     2
  9
$LUPREC
 70
     3
  9
$SKETCHINC
 40
0.1
  9
$FILLETRAD
 40
0.0
  9
$AUNITS
 70
     0
  9
$AUPREC
 70
     1
  9
$MENU
  1

  9
$ELEVATION
 40
0.0
  9
$PELEVATION
 40
0.0
  9
$THICKNESS
 40
0.0
  9
$LIMCHECK
 70
     0
  9
$BLIPMODE
 70
     0
  9
$CHAMFERA
 40
5.0
  9
$CHAMFERB
 40
5.0
  9
$SKPOLY
 70
     1
  9
$TDCREATE
 40
2448719.578301157
  9
$TDUPDATE
 40
2449393.435021296
  9
$TDINDWG
 40
0.0078224537
  9
$TDUSRTIMER
 40
0.0078224537
  9
$USRTIMER
 70
     1
  9
$ANGBASE
 50
0.0
  9
$ANGDIR
 70
     0
  9
$PDMODE
 70
     3
  9
$PDSIZE
 40
0.0
  9
$PLINEWID
 40
0.0
  9
$COORDS
 70
     2
  9
$SPLFRAME
 70
     0
  9
$SPLINETYPE
 70
     6
  9
$SPLINESEGS
 70
     8
  9
$ATTDIA
 70
     1
  9
$ATTREQ
 70
     0
  9
$HANDLING
 70
     0
  9
$HANDSEED
  5
41C8F
  9
$SURFTAB1
 70
     6
  9
$SURFTAB2
 70
     6
  9
$SURFTYPE
 70
     6
  9
$SURFU
 70
     6
  9
$SURFV
 70
     6
  9
$UCSNAME
  2

  9
$UCSORG
 10
0.0
 20
0.0
 30
0.0
  9
$UCSXDIR
 10
1.0
 20
0.0
 30
0.0
  9
$UCSYDIR
 10
0.0
 20
1.0
 30
0.0
  9
$PUCSNAME
  2

  9
$PUCSORG
 10
0.0
 20
0.0
 30
0.0
  9
$PUCSXDIR
 10
1.0
 20
0.0
 30
0.0
  9
$PUCSYDIR
 10
0.0
 20
1.0
 30
0.0
  9
$USERI1
 70
     0
  9
$USERI2
 70
     3
  9
$USERI3
 70
    15
  9
$USERI4
 70
     0
  9
$USERI5
 70
     0
  9
$USERR1
 40
1.0
  9
$USERR2
 40
1.0
  9
$USERR3
 40
0.0
  9
$USERR4
 40
1.0
  9
$USERR5
 40
0.0
  9
$WORLDVIEW
 70
     5
  9
$SHADEDGE
 70
     3
  9
$SHADEDIF
 70
    70
  9
$TILEMODE
 70
     1
  9
$MAXACTVP
 70
    16
  9
$PINSBASE
 10
0.0
 20
0.0
 30
0.0
  9
$PLIMCHECK
 70
     0
  9
$PEXTMIN
 10
1.000000000000000E+20
 20
1.000000000000000E+20
 30
1.000000000000000E+20
  9
$PEXTMAX
 10
-1.000000000000000E+20
 20
-1.000000000000000E+20
 30
-1.000000000000000E+20
  9
$PLIMMIN
 10
0.0
 20
0.0
  9
$PLIMMAX
 10
12.0
 20
9.0
  9
$UNITMODE
 70
     0
  9
$VISRETAIN
 70
     0
  9
$PLINEGEN
 70
     0
  9
$PSLTSCALE
 70
     0
  9
$TREEDEPTH
 70
  3020
  9
$DWGCODEPAGE
  3
undefined
  0
ENDSEC
  0
SECTION
  2
TABLES
  0
TABLE
  2
VPORT
 70
     2
  0
VPORT
  2
*ACTIVE
 70
     0
 10
0.0
 20
0.0
 11
1.0
 21
1.0
 12
331.7923788144028
 22
404.0453438785402
 13
0.0
 23
0.0
 14
1.0
 24
1.0
 15
10.0
 25
10.0
 16
0.0
 26
0.0
 36
1.0
 17
0.0
 27
0.0
 37
0.0
 40
135.7852357570803
 41
1.275675675675675
 42
50.0
 43
0.0
 44
0.0
 50
0.0
 51
0.0
 71
     0
 72
   100
 73
     1
 74
     0
 75
     0
 76
     0
 77
     0
 78
     0
  0
ENDTAB
  0
TABLE
  2
LTYPE
 70
     2
  0
LTYPE
  2
CONTINUOUS
 70
    64
  3
Solid line
 72
    65
 73
     0
 40
0.0
  0
LTYPE
  2
GEN
 70
     0
  3
----------------------
 72
    65
 73
     2
 40
10000000000.0
 49
0.0
 49
10000000000.0
  0
ENDTAB
  0
TABLE
  2
LAYER
 70
     3
  0
LAYER
  2
0
 70
     0
 62
     7
  6
CONTINUOUS
  0
LAYER
  2
ITEM_50
 70
    64
 62
     7
  6
CONTINUOUS
  0
LAYER
  2
ITEM_HILFE
 70
    64
 62
     3
  6
CONTINUOUS
  0
ENDTAB
  0
TABLE
  2
STYLE
 70
     1
  0
STYLE
  2
STANDARD
 70
     0
 40
0.0
 41
1.0
 50
0.0
 71
     0
 42
3.5
  3
ISO8
  4

  0
ENDTAB
  0
TABLE
  2
VIEW
 70
     0
  0
ENDTAB
  0
TABLE
  2
UCS
 70
     0
  0
ENDTAB
  0
TABLE
  2
APPID
 70
     1
  0
APPID
  2
ACAD
 70
    64
  0
ENDTAB
  0
TABLE
  2
DIMSTYLE
 70
     0
  0
ENDTAB
  0
ENDSEC
  0
SECTION
  2
BLOCKS
  0
ENDSEC
  0
SECTION
  2
ENTITIES
  0
LINE
  8
ITEM_50
 10
407.40134
 20
351.822287
 30
0.0
 11
407.40134
 21
348.1527259999999
 31
0.0
  0
LINE
  8
ITEM_50
 10
392.90134
 20
347.1527259999999
 30
0.0
 11
406.40134
 21
347.1527259999999
 31
0.0
  0
LINE
  8
ITEM_50
 10
370.731778
 20
347.1527259999999
 30
0.0
 11
381.90134
 21
347.1527259999999
 31
0.0
  0
LINE
  8
ITEM_50
 10
352.90134
 20
347.1527259999999
 30
0.0
 11
364.1317779999999
 21
347.1527259999999
 31
0.0
  0
LINE
  8
ITEM_50
 10
330.731778
 20
347.1527259999999
 30
0.0
 11
341.90134
 21
347.1527259999999
 31
0.0
  0
LINE
  8
ITEM_50
 10
312.90134
 20
347.1527259999999
 30
0.0
 11
324.1317779999999
 21
347.1527259999999
 31
0.0
  0
LINE
  8
ITEM_50
 10
290.731778
 20
347.1527259999999
 30
0.0
 11
301.90134
 21
347.1527259999999
 31
0.0
  0
LINE
  8
ITEM_50
 10
272.90134
 20
347.1527259999999
 30
0.0
 11
284.1317779999999
 21
347.1527259999999
 31
0.0
  0
LINE
  8
ITEM_50
 10
247.40134
 20
351.822287
 30
0.0
 11
247.40134
 21
348.1527259999999
 31
0.0
  0
LINE
  8
ITEM_50
 10
369.931778
 20
347.9527259999999
 30
0.0
 11
369.931778
 21
348.6527259999999
 31
0.0
  0
LINE
  8
ITEM_50
 10
364.931778
 20
348.6527259999999
 30
0.0
 11
364.931778
 21
347.9527259999999
 31
0.0
  0
ARC
  8
ITEM_50
 10
364.6317779999999
 20
348.6527259999999
 30
0.0
 40
0.3
 50
0.0
 51
90.0
  0
ARC
  8
ITEM_50
 10
370.231778
 20
348.6527259999999
 30
0.0
 40
0.3
 50
90.0
 51
180.0
  0
LINE
  8
ITEM_50
 10
362.481778
 20
348.9527259999999
 30
0.0
 11
364.6317779999999
 21
348.9527259999999
 31
0.0
  0
ARC
  8
ITEM_50
 10
362.481778
 20
349.7527259999999
 30
0.0
 40
0.8
 50
135.0
 51
270.0
  0
LINE
  8
ITEM_50
 10
361.9160929999999
 20
350.318411
 30
0.0
 11
364.716093
 21
353.1184109999999
 31
0.0
  0
ARC
  8
ITEM_50
 10
365.2817779999999
 20
352.552726
 30
0.0
 40
0.8
 50
90.0
 51
135.0
  0
ARC
  8
ITEM_50
 10
369.5817779999999
 20
352.552726
 30
0.0
 40
0.8
 50
45.0
 51
90.0
  0
LINE
  8
ITEM_50
 10
372.947464
 20
350.318411
 30
0.0
 11
370.147464
 21
353.1184109999999
 31
0.0
  0
ARC
  8
ITEM_50
 10
372.3817779999999
 20
349.7527259999999
 30
0.0
 40
0.8
 50
270.0
 51
45.0
  0
LINE
  8
ITEM_50
 10
372.3817779999999
 20
348.9527259999999
 30
0.0
 11
370.231778
 21
348.9527259999999
 31
0.0
  0
ARC
  8
ITEM_50
 10
370.231778
 20
348.6527259999999
 30
0.0
 40
0.3
 50
90.0
 51
180.0
  0
LINE
  8
ITEM_50
 10
365.2817779999999
 20
353.352726
 30
0.0
 11
369.5209009999999
 21
353.352726
 31
0.0
  0
ARC
  8
ITEM_50
 10
364.1317779999999
 20
347.9527259999999
 30
0.0
 40
0.8
 50
270.0
 51
0.0
  0
ARC
  8
ITEM_50
 10
370.731778
 20
347.9527259999999
 30
0.0
 40
0.8
 50
180.0
 51
270.0
  0
ARC
  8
ITEM_50
 10
367.40134
 20
357.1527259999999
 30
0.0
 40
2.0
 50
213.055731
 51
326.944269
  0
ARC
  8
ITEM_50
 10
361.40134
 20
355.1527259999999
 30
0.0
 40
2.0
 50
258.0557309999999
 51
11.944269
  0
LINE
  8
ITEM_50
 10
359.390393
 20
354.555992
 30
0.0
 11
358.926466
 21
354.0920659999999
 31
0.0
  0
LINE
  8
ITEM_50
 10
358.926466
 20
353.8092229999999
 30
0.0
 11
360.057837
 21
352.6778519999999
 31
0.0
  0
LINE
  8
ITEM_50
 10
360.34068
 20
352.6778519999999
 30
0.0
 11
360.8046059999999
 21
353.1417789999999
 31
0.0
  0
LINE
  8
ITEM_50
 10
364.599939
 20
360.6115449999999
 30
0.0
 11
365.1968949999999
 21
358.3836739999999
 31
0.0
  0
ARC
  8
ITEM_50
 10
365.4978719999999
 20
358.4643209999999
 30
0.0
 40
0.311595
 50
195.0
 51
325.431008
  0
LINE
  8
ITEM_50
 10
361.40134
 20
357.3436159999999
 30
0.0
 11
361.40134
 21
358.069883
 31
0.0
  0
LINE
  8
ITEM_50
 10
361.3427609999999
 20
358.2113049999999
 30
0.0
 11
359.908447
 21
359.645619
 31
0.0
  0
LINE
  8
ITEM_50
 10
363.6340129999999
 20
361.352726
 30
0.0
 11
360.6155529999999
 21
361.352726
 31
0.0
  0
ARC
  8
ITEM_50
 10
360.6155529999999
 20
360.352726
 30
0.0
 40
1.0
 50
90.0
 51
225.0
  0
ARC
  8
ITEM_50
 10
363.6340129999999
 20
360.352726
 30
0.0
 40
1.0
 50
14.99999999999999
 51
90.0
  0
LINE
  8
ITEM_50
 10
363.8983959999999
 20
356.1527259999999
 30
0.0
 11
365.557431
 21
356.1527259999999
 31
0.0
  0
LINE
  8
ITEM_50
 10
363.4122869999999
 20
355.7494599999999
 30
0.0
 11
363.756975
 21
356.094147
 31
0.0
  0
ARC
  8
ITEM_50
 10
361.40134
 20
355.1527259999999
 30
0.0
 40
2.0
 50
95.21590899999999
 51
191.9442689999999
  0
ARC
  8
ITEM_50
 10
361.20134
 20
358.069883
 30
0.0
 40
0.2
 50
0.0
 51
45.0
  0
ARC
  8
ITEM_50
 10
361.20134
 20
357.3436159999999
 30
0.0
 40
0.2
 50
275.215909
 51
0.0
  0
ARC
  8
ITEM_50
 10
359.2489709999999
 20
354.6974139999999
 30
0.0
 40
0.2
 50
315.0
 51
11.944269
  0
ARC
  8
ITEM_50
 10
359.0678869999999
 20
353.950644
 30
0.0
 40
0.2
 50
135.0
 51
225.0
  0
ARC
  8
ITEM_50
 10
360.1992579999999
 20
352.819274
 30
0.0
 40
0.2
 50
225.0
 51
315.0
  0
ARC
  8
ITEM_50
 10
360.946027
 20
353.000357
 30
0.0
 40
0.2
 50
78.05573099999999
 51
135.0
  0
ARC
  8
ITEM_50
 10
363.5537079999999
 20
355.608038
 30
0.0
 40
0.2
 50
135.0
 51
191.9442689999999
  0
ARC
  8
ITEM_50
 10
363.8983959999999
 20
355.9527259999999
 30
0.0
 40
0.2
 50
90.0
 51
135.0
  0
ARC
  8
ITEM_50
 10
365.557431
 20
355.9527259999999
 30
0.0
 40
0.2
 50
33.055731
 51
90.0
  0
ARC
  8
ITEM_50
 10
369.245249
 20
355.9527259999999
 30
0.0
 40
0.2
 50
90.0
 51
146.9442689999999
  0
ARC
  8
ITEM_50
 10
370.904284
 20
355.9527259999999
 30
0.0
 40
0.2
 50
45.0
 51
90.0
  0
ARC
  8
ITEM_50
 10
371.2489709999999
 20
355.608038
 30
0.0
 40
0.2
 50
348.0557309999999
 51
45.0
  0
ARC
  8
ITEM_50
 10
373.8566519999999
 20
353.000357
 30
0.0
 40
0.2
 50
45.0
 51
101.944269
  0
ARC
  8
ITEM_50
 10
374.603421
 20
352.819274
 30
0.0
 40
0.2
 50
225.0
 51
315.0
  0
ARC
  8
ITEM_50
 10
375.734792
 20
353.950644
 30
0.0
 40
0.2
 50
315.0
 51
45.0
  0
ARC
  8
ITEM_50
 10
375.5537079999999
 20
354.6974139999999
 30
0.0
 40
0.2
 50
168.055731
 51
225.0
  0
ARC
  8
ITEM_50
 10
373.6013399999999
 20
357.3436159999999
 30
0.0
 40
0.2
 50
180.0
 51
264.7840909999999
  0
ARC
  8
ITEM_50
 10
373.6013399999999
 20
358.069883
 30
0.0
 40
0.2
 50
135.0
 51
180.0
  0
ARC
  8
ITEM_50
 10
373.40134
 20
355.1527259999999
 30
0.0
 40
2.0
 50
348.0557309999999
 51
84.784091
  0
LINE
  8
ITEM_50
 10
371.390393
 20
355.7494599999999
 30
0.0
 11
371.0457049999999
 21
356.094147
 31
0.0
  0
LINE
  8
ITEM_50
 10
370.904284
 20
356.1527259999999
 30
0.0
 11
369.245249
 21
356.1527259999999
 31
0.0
  0
ARC
  8
ITEM_50
 10
371.168667
 20
360.352726
 30
0.0
 40
1.0
 50
90.0
 51
165.0
  0
ARC
  8
ITEM_50
 10
374.1871259999999
 20
360.352726
 30
0.0
 40
1.0
 50
315.0
 51
90.0
  0
LINE
  8
ITEM_50
 10
371.168667
 20
361.352726
 30
0.0
 11
374.1871259999999
 21
361.352726
 31
0.0
  0
LINE
  8
ITEM_50
 10
373.459918
 20
358.2113049999999
 30
0.0
 11
374.8942329999999
 21
359.645619
 31
0.0
  0
LINE
  8
ITEM_50
 10
373.40134
 20
357.3436159999999
 30
0.0
 11
373.40134
 21
358.069883
 31
0.0
  0
ARC
  8
ITEM_50
 10
369.3048069999999
 20
358.4643209999999
 30
0.0
 40
0.311595
 50
214.568992
 51
345.0
  0
LINE
  8
ITEM_50
 10
370.202741
 20
360.6115449999999
 30
0.0
 11
369.605785
 21
358.3836739999999
 31
0.0
  0
LINE
  8
ITEM_50
 10
374.4619999999999
 20
352.6778519999999
 30
0.0
 11
373.9980729999999
 21
353.1417789999999
 31
0.0
  0
LINE
  8
ITEM_50
 10
375.876214
 20
353.8092229999999
 30
0.0
 11
374.744843
 21
352.6778519999999
 31
0.0
  0
LINE
  8
ITEM_50
 10
375.4122869999999
 20
354.555992
 30
0.0
 11
375.876214
 21
354.0920659999999
 31
0.0
  0
ARC
  8
ITEM_50
 10
373.40134
 20
355.1527259999999
 30
0.0
 40
2.0
 50
168.055731
 51
281.944269
  0
ARC
  8
ITEM_50
 10
367.40134
 20
357.1527259999999
 30
0.0
 40
2.0
 50
34.568992
 51
145.4310079999999
  0
LINE
  8
ITEM_50
 10
329.931778
 20
347.9527259999999
 30
0.0
 11
329.931778
 21
348.6527259999999
 31
0.0
  0
LINE
  8
ITEM_50
 10
324.931778
 20
348.6527259999999
 30
0.0
 11
324.931778
 21
347.9527259999999
 31
0.0
  0
ARC
  8
ITEM_50
 10
324.6317779999999
 20
348.6527259999999
 30
0.0
 40
0.3
 50
0.0
 51
90.0
  0
ARC
  8
ITEM_50
 10
330.231778
 20
348.6527259999999
 30
0.0
 40
0.3
 50
90.0
 51
180.0
  0
LINE
  8
ITEM_50
 10
322.481778
 20
348.9527259999999
 30
0.0
 11
324.6317779999999
 21
348.9527259999999
 31
0.0
  0
ARC
  8
ITEM_50
 10
322.481778
 20
349.7527259999999
 30
0.0
 40
0.8
 50
135.0
 51
270.0
  0
LINE
  8
ITEM_50
 10
321.9160929999999
 20
350.318411
 30
0.0
 11
324.716093
 21
353.1184109999999
 31
0.0
  0
ARC
  8
ITEM_50
 10
325.2817779999999
 20
352.552726
 30
0.0
 40
0.8
 50
90.0
 51
135.0
  0
ARC
  8
ITEM_50
 10
329.5817779999999
 20
352.552726
 30
0.0
 40
0.8
 50
45.0
 51
90.0
  0
LINE
  8
ITEM_50
 10
332.947464
 20
350.318411
 30
0.0
 11
330.147464
 21
353.1184109999999
 31
0.0
  0
ARC
  8
ITEM_50
 10
332.3817779999999
 20
349.7527259999999
 30
0.0
 40
0.8
 50
270.0
 51
45.0
  0
LINE
  8
ITEM_50
 10
332.3817779999999
 20
348.9527259999999
 30
0.0
 11
330.231778
 21
348.9527259999999
 31
0.0
  0
ARC
  8
ITEM_50
 10
330.231778
 20
348.6527259999999
 30
0.0
 40
0.3
 50
90.0
 51
180.0
  0
LINE
  8
ITEM_50
 10
325.2817779999999
 20
353.352726
 30
0.0
 11
329.5209009999999
 21
353.352726
 31
0.0
  0
ARC
  8
ITEM_50
 10
324.1317779999999
 20
347.9527259999999
 30
0.0
 40
0.8
 50
270.0
 51
0.0
  0
ARC
  8
ITEM_50
 10
330.731778
 20
347.9527259999999
 30
0.0
 40
0.8
 50
180.0
 51
270.0
  0
ARC
  8
ITEM_50
 10
327.40134
 20
357.1527259999999
 30
0.0
 40
2.0
 50
213.055731
 51
326.944269
  0
ARC
  8
ITEM_50
 10
321.40134
 20
355.1527259999999
 30
0.0
 40
2.0
 50
258.0557309999999
 51
11.944269
  0
LINE
  8
ITEM_50
 10
319.390393
 20
354.555992
 30
0.0
 11
318.926466
 21
354.0920659999999
 31
0.0
  0
LINE
  8
ITEM_50
 10
318.926466
 20
353.8092229999999
 30
0.0
 11
320.057837
 21
352.6778519999999
 31
0.0
  0
LINE
  8
ITEM_50
 10
320.34068
 20
352.6778519999999
 30
0.0
 11
320.8046059999999
 21
353.1417789999999
 31
0.0
  0
LINE
  8
ITEM_50
 10
324.599939
 20
360.6115449999999
 30
0.0
 11
325.1968949999999
 21
358.3836739999999
 31
0.0
  0
ARC
  8
ITEM_50
 10
325.4978719999999
 20
358.4643209999999
 30
0.0
 40
0.311595
 50
195.0
 51
325.431008
  0
LINE
  8
ITEM_50
 10
321.40134
 20
357.3436159999999
 30
0.0
 11
321.40134
 21
358.069883
 31
0.0
  0
LINE
  8
ITEM_50
 10
321.3427609999999
 20
358.2113049999999
 30
0.0
 11
319.908447
 21
359.645619
 31
0.0
  0
LINE
  8
ITEM_50
 10
323.6340129999999
 20
361.352726
 30
0.0
 11
320.6155529999999
 21
361.352726
 31
0.0
  0
ARC
  8
ITEM_50
 10
320.6155529999999
 20
360.352726
 30
0.0
 40
1.0
 50
90.0
 51
225.0
  0
ARC
  8
ITEM_50
 10
323.6340129999999
 20
360.352726
 30
0.0
 40
1.0
 50
14.99999999999999
 51
90.0
  0
LINE
  8
ITEM_50
 10
323.8983959999999
 20
356.1527259999999
 30
0.0
 11
325.557431
 21
356.1527259999999
 31
0.0
  0
LINE
  8
ITEM_50
 10
323.4122869999999
 20
355.7494599999999
 30
0.0
 11
323.756975
 21
356.094147
 31
0.0
  0
ARC
  8
ITEM_50
 10
321.40134
 20
355.1527259999999
 30
0.0
 40
2.0
 50
95.21590899999999
 51
191.9442689999999
  0
ARC
  8
ITEM_50
 10
321.20134
 20
358.069883
 30
0.0
 40
0.2
 50
0.0
 51
45.0
  0
ARC
  8
ITEM_50
 10
321.20134
 20
357.3436159999999
 30
0.0
 40
0.2
 50
275.215909
 51
0.0
  0
ARC
  8
ITEM_50
 10
319.2489709999999
 20
354.6974139999999
 30
0.0
 40
0.2
 50
315.0
 51
11.944269
  0
ARC
  8
ITEM_50
 10
319.0678869999999
 20
353.950644
 30
0.0
 40
0.2
 50
135.0
 51
225.0
  0
ARC
  8
ITEM_50
 10
320.1992579999999
 20
352.819274
 30
0.0
 40
0.2
 50
225.0
 51
315.0
  0
ARC
  8
ITEM_50
 10
320.946027
 20
353.000357
 30
0.0
 40
0.2
 50
78.05573099999999
 51
135.0
  0
ARC
  8
ITEM_50
 10
323.5537079999999
 20
355.608038
 30
0.0
 40
0.2
 50
135.0
 51
191.9442689999999
  0
ARC
  8
ITEM_50
 10
323.8983959999999
 20
355.9527259999999
 30
0.0
 40
0.2
 50
90.0
 51
135.0
  0
ARC
  8
ITEM_50
 10
325.557431
 20
355.9527259999999
 30
0.0
 40
0.2
 50
33.055731
 51
90.0
  0
ARC
  8
ITEM_50
 10
329.245249
 20
355.9527259999999
 30
0.0
 40
0.2
 50
90.0
 51
146.9442689999999
  0
ARC
  8
ITEM_50
 10
330.904284
 20
355.9527259999999
 30
0.0
 40
0.2
 50
45.0
 51
90.0
  0
ARC
  8
ITEM_50
 10
331.2489709999999
 20
355.608038
 30
0.0
 40
0.2
 50
348.0557309999999
 51
45.0
  0
ARC
  8
ITEM_50
 10
333.8566519999999
 20
353.000357
 30
0.0
 40
0.2
 50
45.0
 51
101.944269
  0
ARC
  8
ITEM_50
 10
334.603421
 20
352.819274
 30
0.0
 40
0.2
 50
225.0
 51
315.0
  0
ARC
  8
ITEM_50
 10
335.734792
 20
353.950644
 30
0.0
 40
0.2
 50
315.0
 51
45.0
  0
ARC
  8
ITEM_50
 10
335.5537079999999
 20
354.6974139999999
 30
0.0
 40
0.2
 50
168.055731
 51
225.0
  0
ARC
  8
ITEM_50
 10
333.6013399999999
 20
357.3436159999999
 30
0.0
 40
0.2
 50
180.0
 51
264.7840909999999
  0
ARC
  8
ITEM_50
 10
333.6013399999999
 20
358.069883
 30
0.0
 40
0.2
 50
135.0
 51
180.0
  0
ARC
  8
ITEM_50
 10
333.40134
 20
355.1527259999999
 30
0.0
 40
2.0
 50
348.0557309999999
 51
84.784091
  0
LINE
  8
ITEM_50
 10
331.390393
 20
355.7494599999999
 30
0.0
 11
331.0457049999999
 21
356.094147
 31
0.0
  0
LINE
  8
ITEM_50
 10
330.904284
 20
356.1527259999999
 30
0.0
 11
329.245249
 21
356.1527259999999
 31
0.0
  0
ARC
  8
ITEM_50
 10
331.168667
 20
360.352726
 30
0.0
 40
1.0
 50
90.0
 51
165.0
  0
ARC
  8
ITEM_50
 10
334.1871259999999
 20
360.352726
 30
0.0
 40
1.0
 50
315.0
 51
90.0
  0
LINE
  8
ITEM_50
 10
331.168667
 20
361.352726
 30
0.0
 11
334.1871259999999
 21
361.352726
 31
0.0
  0
LINE
  8
ITEM_50
 10
333.459918
 20
358.2113049999999
 30
0.0
 11
334.8942329999999
 21
359.645619
 31
0.0
  0
LINE
  8
ITEM_50
 10
333.40134
 20
357.3436159999999
 30
0.0
 11
333.40134
 21
358.069883
 31
0.0
  0
ARC
  8
ITEM_50
 10
329.3048069999999
 20
358.4643209999999
 30
0.0
 40
0.311595
 50
214.568992
 51
345.0
  0
LINE
  8
ITEM_50
 10
330.202741
 20
360.6115449999999
 30
0.0
 11
329.605785
 21
358.3836739999999
 31
0.0
  0
LINE
  8
ITEM_50
 10
334.4619999999999
 20
352.6778519999999
 30
0.0
 11
333.9980729999999
 21
353.1417789999999
 31
0.0
  0
LINE
  8
ITEM_50
 10
335.876214
 20
353.8092229999999
 30
0.0
 11
334.744843
 21
352.6778519999999
 31
0.0
  0
LINE
  8
ITEM_50
 10
335.4122869999999
 20
354.555992
 30
0.0
 11
335.876214
 21
354.0920659999999
 31
0.0
  0
ARC
  8
ITEM_50
 10
333.40134
 20
355.1527259999999
 30
0.0
 40
2.0
 50
168.055731
 51
281.944269
  0
ARC
  8
ITEM_50
 10
327.40134
 20
357.1527259999999
 30
0.0
 40
2.0
 50
34.568992
 51
145.4310079999999
  0
ARC
  8
ITEM_50
 10
287.40134
 20
357.1527259999999
 30
0.0
 40
2.0
 50
34.568992
 51
145.4310079999999
  0
ARC
  8
ITEM_50
 10
293.40134
 20
355.1527259999999
 30
0.0
 40
2.0
 50
168.055731
 51
281.944269
  0
LINE
  8
ITEM_50
 10
295.4122869999999
 20
354.555992
 30
0.0
 11
295.876214
 21
354.0920659999999
 31
0.0
  0
LINE
  8
ITEM_50
 10
295.876214
 20
353.8092229999999
 30
0.0
 11
294.744843
 21
352.6778519999999
 31
0.0
  0
LINE
  8
ITEM_50
 10
294.4619999999999
 20
352.6778519999999
 30
0.0
 11
293.9980729999999
 21
353.1417789999999
 31
0.0
  0
LINE
  8
ITEM_50
 10
290.202741
 20
360.6115449999999
 30
0.0
 11
289.605785
 21
358.3836739999999
 31
0.0
  0
ARC
  8
ITEM_50
 10
289.3048069999999
 20
358.4643209999999
 30
0.0
 40
0.311595
 50
214.568992
 51
345.0
  0
LINE
  8
ITEM_50
 10
293.40134
 20
357.3436159999999
 30
0.0
 11
293.40134
 21
358.069883
 31
0.0
  0
LINE
  8
ITEM_50
 10
293.459918
 20
358.2113049999999
 30
0.0
 11
294.8942329999999
 21
359.645619
 31
0.0
  0
LINE
  8
ITEM_50
 10
291.168667
 20
361.352726
 30
0.0
 11
294.1871259999999
 21
361.352726
 31
0.0
  0
ARC
  8
ITEM_50
 10
294.1871259999999
 20
360.352726
 30
0.0
 40
1.0
 50
315.0
 51
90.0
  0
ARC
  8
ITEM_50
 10
291.168667
 20
360.352726
 30
0.0
 40
1.0
 50
90.0
 51
165.0
  0
LINE
  8
ITEM_50
 10
290.904284
 20
356.1527259999999
 30
0.0
 11
289.245249
 21
356.1527259999999
 31
0.0
  0
LINE
  8
ITEM_50
 10
291.390393
 20
355.7494599999999
 30
0.0
 11
291.0457049999999
 21
356.094147
 31
0.0
  0
ARC
  8
ITEM_50
 10
293.40134
 20
355.1527259999999
 30
0.0
 40
2.0
 50
348.0557309999999
 51
84.784091
  0
ARC
  8
ITEM_50
 10
293.6013399999999
 20
358.069883
 30
0.0
 40
0.2
 50
135.0
 51
180.0
  0
ARC
  8
ITEM_50
 10
293.6013399999999
 20
357.3436159999999
 30
0.0
 40
0.2
 50
180.0
 51
264.7840909999999
  0
ARC
  8
ITEM_50
 10
295.5537079999999
 20
354.6974139999999
 30
0.0
 40
0.2
 50
168.055731
 51
225.0
  0
ARC
  8
ITEM_50
 10
295.734792
 20
353.950644
 30
0.0
 40
0.2
 50
315.0
 51
45.0
  0
ARC
  8
ITEM_50
 10
294.603421
 20
352.819274
 30
0.0
 40
0.2
 50
225.0
 51
315.0
  0
ARC
  8
ITEM_50
 10
293.8566519999999
 20
353.000357
 30
0.0
 40
0.2
 50
45.0
 51
101.944269
  0
ARC
  8
ITEM_50
 10
291.2489709999999
 20
355.608038
 30
0.0
 40
0.2
 50
348.0557309999999
 51
45.0
  0
ARC
  8
ITEM_50
 10
290.904284
 20
355.9527259999999
 30
0.0
 40
0.2
 50
45.0
 51
90.0
  0
ARC
  8
ITEM_50
 10
289.245249
 20
355.9527259999999
 30
0.0
 40
0.2
 50
90.0
 51
146.9442689999999
  0
ARC
  8
ITEM_50
 10
285.557431
 20
355.9527259999999
 30
0.0
 40
0.2
 50
33.055731
 51
90.0
  0
ARC
  8
ITEM_50
 10
283.8983959999999
 20
355.9527259999999
 30
0.0
 40
0.2
 50
90.0
 51
135.0
  0
ARC
  8
ITEM_50
 10
283.5537079999999
 20
355.608038
 30
0.0
 40
0.2
 50
135.0
 51
191.9442689999999
  0
ARC
  8
ITEM_50
 10
280.946027
 20
353.000357
 30
0.0
 40
0.2
 50
78.05573099999999
 51
135.0
  0
ARC
  8
ITEM_50
 10
280.1992579999999
 20
352.819274
 30
0.0
 40
0.2
 50
225.0
 51
315.0
  0
ARC
  8
ITEM_50
 10
279.0678869999999
 20
353.950644
 30
0.0
 40
0.2
 50
135.0
 51
225.0
  0
ARC
  8
ITEM_50
 10
279.2489709999999
 20
354.6974139999999
 30
0.0
 40
0.2
 50
315.0
 51
11.944269
  0
ARC
  8
ITEM_50
 10
281.20134
 20
357.3436159999999
 30
0.0
 40
0.2
 50
275.215909
 51
0.0
  0
ARC
  8
ITEM_50
 10
281.20134
 20
358.069883
 30
0.0
 40
0.2
 50
0.0
 51
45.0
  0
ARC
  8
ITEM_50
 10
281.40134
 20
355.1527259999999
 30
0.0
 40
2.0
 50
95.21590899999999
 51
191.9442689999999
  0
LINE
  8
ITEM_50
 10
283.4122869999999
 20
355.7494599999999
 30
0.0
 11
283.756975
 21
356.094147
 31
0.0
  0
LINE
  8
ITEM_50
 10
283.8983959999999
 20
356.1527259999999
 30
0.0
 11
285.557431
 21
356.1527259999999
 31
0.0
  0
ARC
  8
ITEM_50
 10
283.6340129999999
 20
360.352726
 30
0.0
 40
1.0
 50
14.99999999999999
 51
90.0
  0
ARC
  8
ITEM_50
 10
280.6155529999999
 20
360.352726
 30
0.0
 40
1.0
 50
90.0
 51
225.0
  0
LINE
  8
ITEM_50
 10
283.6340129999999
 20
361.352726
 30
0.0
 11
280.6155529999999
 21
361.352726
 31
0.0
  0
LINE
  8
ITEM_50
 10
281.3427609999999
 20
358.2113049999999
 30
0.0
 11
279.908447
 21
359.645619
 31
0.0
  0
LINE
  8
ITEM_50
 10
281.40134
 20
357.3436159999999
 30
0.0
 11
281.40134
 21
358.069883
 31
0.0
  0
ARC
  8
ITEM_50
 10
285.4978719999999
 20
358.4643209999999
 30
0.0
 40
0.311595
 50
195.0
 51
325.431008
  0
LINE
  8
ITEM_50
 10
284.599939
 20
360.6115449999999
 30
0.0
 11
285.1968949999999
 21
358.3836739999999
 31
0.0
  0
LINE
  8
ITEM_50
 10
280.34068
 20
352.6778519999999
 30
0.0
 11
280.8046059999999
 21
353.1417789999999
 31
0.0
  0
LINE
  8
ITEM_50
 10
278.926466
 20
353.8092229999999
 30
0.0
 11
280.057837
 21
352.6778519999999
 31
0.0
  0
LINE
  8
ITEM_50
 10
279.390393
 20
354.555992
 30
0.0
 11
278.926466
 21
354.0920659999999
 31
0.0
  0
ARC
  8
ITEM_50
 10
281.40134
 20
355.1527259999999
 30
0.0
 40
2.0
 50
258.0557309999999
 51
11.944269
  0
ARC
  8
ITEM_50
 10
287.40134
 20
357.1527259999999
 30
0.0
 40
2.0
 50
213.055731
 51
326.944269
  0
ARC
  8
ITEM_50
 10
290.731778
 20
347.9527259999999
 30
0.0
 40
0.8
 50
180.0
 51
270.0
  0
ARC
  8
ITEM_50
 10
284.1317779999999
 20
347.9527259999999
 30
0.0
 40
0.8
 50
270.0
 51
0.0
  0
LINE
  8
ITEM_50
 10
285.2817779999999
 20
353.352726
 30
0.0
 11
289.5209009999999
 21
353.352726
 31
0.0
  0
ARC
  8
ITEM_50
 10
290.231778
 20
348.6527259999999
 30
0.0
 40
0.3
 50
90.0
 51
180.0
  0
LINE
  8
ITEM_50
 10
292.3817779999999
 20
348.9527259999999
 30
0.0
 11
290.231778
 21
348.9527259999999
 31
0.0
  0
ARC
  8
ITEM_50
 10
292.3817779999999
 20
349.7527259999999
 30
0.0
 40
0.8
 50
270.0
 51
45.0
  0
LINE
  8
ITEM_50
 10
292.947464
 20
350.318411
 30
0.0
 11
290.147464
 21
353.1184109999999
 31
0.0
  0
ARC
  8
ITEM_50
 10
289.5817779999999
 20
352.552726
 30
0.0
 40
0.8
 50
45.0
 51
90.0
  0
ARC
  8
ITEM_50
 10
285.2817779999999
 20
352.552726
 30
0.0
 40
0.8
 50
90.0
 51
135.0
  0
LINE
  8
ITEM_50
 10
281.9160929999999
 20
350.318411
 30
0.0
 11
284.716093
 21
353.1184109999999
 31
0.0
  0
ARC
  8
ITEM_50
 10
282.481778
 20
349.7527259999999
 30
0.0
 40
0.8
 50
135.0
 51
270.0
  0
LINE
  8
ITEM_50
 10
282.481778
 20
348.9527259999999
 30
0.0
 11
284.6317779999999
 21
348.9527259999999
 31
0.0
  0
ARC
  8
ITEM_50
 10
290.231778
 20
348.6527259999999
 30
0.0
 40
0.3
 50
90.0
 51
180.0
  0
ARC
  8
ITEM_50
 10
284.6317779999999
 20
348.6527259999999
 30
0.0
 40
0.3
 50
0.0
 51
90.0
  0
LINE
  8
ITEM_50
 10
284.931778
 20
348.6527259999999
 30
0.0
 11
284.931778
 21
347.9527259999999
 31
0.0
  0
LINE
  8
ITEM_50
 10
289.931778
 20
347.9527259999999
 30
0.0
 11
289.931778
 21
348.6527259999999
 31
0.0
  0
ARC
  8
ITEM_50
 10
406.40134
 20
362.1527259999999
 30
0.0
 40
1.0
 50
0.0
 51
90.0
  0
LINE
  8
ITEM_50
 10
407.40134
 20
362.1527259999999
 30
0.0
 11
407.40134
 21
358.4222869999999
 31
0.0
  0
ARC
  8
ITEM_50
 10
406.40134
 20
348.1527259999999
 30
0.0
 40
1.0
 50
270.0
 51
0.0
  0
LINE
  8
ITEM_50
 10
406.6013399999999
 20
352.6222869999999
 30
0.0
 11
405.90134
 21
352.6222869999999
 31
0.0
  0
LINE
  8
ITEM_50
 10
405.90134
 20
357.6222869999999
 30
0.0
 11
406.6013399999999
 21
357.6222869999999
 31
0.0
  0
ARC
  8
ITEM_50
 10
405.90134
 20
357.9222869999999
 30
0.0
 40
0.3
 50
180.0
 51
270.0
  0
ARC
  8
ITEM_50
 10
405.90134
 20
352.322287
 30
0.0
 40
0.3
 50
90.0
 51
180.0
  0
LINE
  8
ITEM_50
 10
405.6013399999999
 20
360.072287
 30
0.0
 11
405.6013399999999
 21
357.9222869999999
 31
0.0
  0
ARC
  8
ITEM_50
 10
404.8013399999999
 20
360.072287
 30
0.0
 40
0.8
 50
0.0
 51
135.0
  0
LINE
  8
ITEM_50
 10
404.235654
 20
360.6379729999999
 30
0.0
 11
401.4356539999999
 21
357.8379729999999
 31
0.0
  0
ARC
  8
ITEM_50
 10
402.00134
 20
357.272287
 30
0.0
 40
0.8
 50
135.0
 51
180.0
  0
ARC
  8
ITEM_50
 10
402.00134
 20
352.9722869999999
 30
0.0
 40
0.8
 50
180.0
 51
225.0
  0
LINE
  8
ITEM_50
 10
404.235654
 20
349.606602
 30
0.0
 11
401.4356539999999
 21
352.406602
 31
0.0
  0
ARC
  8
ITEM_50
 10
404.8013399999999
 20
350.1722869999999
 30
0.0
 40
0.8
 50
225.0
 51
0.0
  0
LINE
  8
ITEM_50
 10
405.6013399999999
 20
350.1722869999999
 30
0.0
 11
405.6013399999999
 21
352.322287
 31
0.0
  0
ARC
  8
ITEM_50
 10
405.90134
 20
352.322287
 30
0.0
 40
0.3
 50
90.0
 51
180.0
  0
LINE
  8
ITEM_50
 10
401.20134
 20
357.272287
 30
0.0
 11
401.20134
 21
353.0331649999999
 31
0.0
  0
ARC
  8
ITEM_50
 10
406.6013399999999
 20
358.4222869999999
 30
0.0
 40
0.8
 50
270.0
 51
0.0
  0
ARC
  8
ITEM_50
 10
406.6013399999999
 20
351.822287
 30
0.0
 40
0.8
 50
0.0
 51
90.0
  0
ARC
  8
ITEM_50
 10
248.2013399999999
 20
351.822287
 30
0.0
 40
0.8
 50
90.0
 51
180.0
  0
ARC
  8
ITEM_50
 10
248.2013399999999
 20
358.4222869999999
 30
0.0
 40
0.8
 50
180.0
 51
270.0
  0
LINE
  8
ITEM_50
 10
253.6013399999999
 20
357.272287
 30
0.0
 11
253.6013399999999
 21
353.0331649999999
 31
0.0
  0
ARC
  8
ITEM_50
 10
248.90134
 20
352.322287
 30
0.0
 40
0.3
 50
0.0
 51
90.0
  0
LINE
  8
ITEM_50
 10
249.2013399999999
 20
350.1722869999999
 30
0.0
 11
249.2013399999999
 21
352.322287
 31
0.0
  0
ARC
  8
ITEM_50
 10
250.0013399999999
 20
350.1722869999999
 30
0.0
 40
0.8
 50
180.0
 51
315.0
  0
LINE
  8
ITEM_50
 10
250.567025
 20
349.606602
 30
0.0
 11
253.367025
 21
352.406602
 31
0.0
  0
ARC
  8
ITEM_50
 10
252.80134
 20
352.9722869999999
 30
0.0
 40
0.8
 50
315.0
 51
0.0
  0
ARC
  8
ITEM_50
 10
252.80134
 20
357.272287
 30
0.0
 40
0.8
 50
0.0
 51
45.0
  0
LINE
  8
ITEM_50
 10
250.567025
 20
360.6379729999999
 30
0.0
 11
253.367025
 21
357.8379729999999
 31
0.0
  0
ARC
  8
ITEM_50
 10
250.0013399999999
 20
360.072287
 30
0.0
 40
0.8
 50
45.0
 51
180.0
  0
LINE
  8
ITEM_50
 10
249.2013399999999
 20
360.072287
 30
0.0
 11
249.2013399999999
 21
357.9222869999999
 31
0.0
  0
ARC
  8
ITEM_50
 10
248.90134
 20
352.322287
 30
0.0
 40
0.3
 50
0.0
 51
90.0
  0
ARC
  8
ITEM_50
 10
248.90134
 20
357.9222869999999
 30
0.0
 40
0.3
 50
270.0
 51
0.0
  0
LINE
  8
ITEM_50
 10
248.90134
 20
357.6222869999999
 30
0.0
 11
248.2013399999999
 21
357.6222869999999
 31
0.0
  0
LINE
  8
ITEM_50
 10
248.2013399999999
 20
352.6222869999999
 30
0.0
 11
248.90134
 21
352.6222869999999
 31
0.0
  0
ARC
  8
ITEM_50
 10
393.90134
 20
351.1527259999999
 30
0.0
 40
0.5
 50
0.0
 51
90.0
  0
ARC
  8
ITEM_50
 10
392.40134
 20
350.6527259999999
 30
0.0
 40
1.0
 50
90.0
 51
180.0
  0
LINE
  8
ITEM_50
 10
394.90134
 20
349.1527259999999
 30
0.0
 11
394.90134
 21
349.1527259999999
 31
0.0
  0
LINE
  8
ITEM_50
 10
394.40134
 20
351.1527259999999
 30
0.0
 11
394.40134
 21
349.6527259999999
 31
0.0
  0
LINE
  8
ITEM_50
 10
392.40134
 20
351.6527259999999
 30
0.0
 11
393.90134
 21
351.6527259999999
 31
0.0
  0
LINE
  8
ITEM_50
 10
391.40134
 20
348.6527259999999
 30
0.0
 11
391.40134
 21
350.6527259999999
 31
0.0
  0
LINE
  8
ITEM_50
 10
393.0802719999999
 20
357.93826
 30
0.0
 11
395.9368739999999
 21
355.081658
 31
0.0
  0
ARC
  8
ITEM_50
 10
389.5447379999999
 20
354.4027259999999
 30
0.0
 40
5.0
 50
45.0
 51
90.0
  0
ARC
  8
ITEM_50
 10
394.90134
 20
349.6527259999999
 30
0.0
 40
0.5
 50
180.0
 51
270.0
  0
ARC
  8
ITEM_50
 10
394.90134
 20
351.6527259999999
 30
0.0
 40
2.5
 50
270.0
 51
358.9879809999999
  0
ARC
  8
ITEM_50
 10
379.90134
 20
349.6527259999999
 30
0.0
 40
0.5
 50
270.0
 51
0.0
  0
ARC
  8
ITEM_50
 10
385.257942
 20
354.4027259999999
 30
0.0
 40
5.0
 50
90.0
 51
135.0
  0
LINE
  8
ITEM_50
 10
381.7224079999999
 20
357.93826
 30
0.0
 11
378.865806
 21
355.081658
 31
0.0
  0
LINE
  8
ITEM_50
 10
383.40134
 20
348.6527259999999
 30
0.0
 11
383.40134
 21
350.6527259999999
 31
0.0
  0
LINE
  8
ITEM_50
 10
382.40134
 20
351.6527259999999
 30
0.0
 11
380.90134
 21
351.6527259999999
 31
0.0
  0
LINE
  8
ITEM_50
 10
380.40134
 20
351.1527259999999
 30
0.0
 11
380.40134
 21
349.6527259999999
 31
0.0
  0
LINE
  8
ITEM_50
 10
379.90134
 20
349.1527259999999
 30
0.0
 11
379.90134
 21
349.1527259999999
 31
0.0
  0
ARC
  8
ITEM_50
 10
382.40134
 20
350.6527259999999
 30
0.0
 40
1.0
 50
0.0
 51
90.0
  0
ARC
  8
ITEM_50
 10
380.90134
 20
351.1527259999999
 30
0.0
 40
0.5
 50
90.0
 51
180.0
  0
ARC
  8
ITEM_50
 10
392.40134
 20
351.546124
 30
0.0
 40
5.0
 50
0.715601
 51
45.0
  0
ARC
  8
ITEM_50
 10
379.90134
 20
351.6527259999999
 30
0.0
 40
2.5
 50
181.012019
 51
270.0
  0
ARC
  8
ITEM_50
 10
382.40134
 20
351.546124
 30
0.0
 40
5.0
 50
135.0
 51
179.284399
  0
LINE
  8
ITEM_50
 10
385.257942
 20
359.4027259999999
 30
0.0
 11
389.5447379999999
 21
359.4027259999999
 31
0.0
  0
ARC
  8
ITEM_50
 10
381.90134
 20
348.6527259999999
 30
0.0
 40
1.5
 50
270.0
 51
0.0
  0
ARC
  8
ITEM_50
 10
392.90134
 20
348.6527259999999
 30
0.0
 40
1.5
 50
180.0
 51
270.0
  0
ARC
  8
ITEM_50
 10
353.90134
 20
351.1527259999999
 30
0.0
 40
0.5
 50
0.0
 51
90.0
  0
ARC
  8
ITEM_50
 10
352.40134
 20
350.6527259999999
 30
0.0
 40
1.0
 50
90.0
 51
180.0
  0
LINE
  8
ITEM_50
 10
354.90134
 20
349.1527259999999
 30
0.0
 11
354.90134
 21
349.1527259999999
 31
0.0
  0
LINE
  8
ITEM_50
 10
354.40134
 20
351.1527259999999
 30
0.0
 11
354.40134
 21
349.6527259999999
 31
0.0
  0
LINE
  8
ITEM_50
 10
352.40134
 20
351.6527259999999
 30
0.0
 11
353.90134
 21
351.6527259999999
 31
0.0
  0
LINE
  8
ITEM_50
 10
351.40134
 20
348.6527259999999
 30
0.0
 11
351.40134
 21
350.6527259999999
 31
0.0
  0
LINE
  8
ITEM_50
 10
353.0802719999999
 20
357.93826
 30
0.0
 11
355.9368739999999
 21
355.081658
 31
0.0
  0
ARC
  8
ITEM_50
 10
349.5447379999999
 20
354.4027259999999
 30
0.0
 40
5.0
 50
45.0
 51
90.0
  0
ARC
  8
ITEM_50
 10
354.90134
 20
349.6527259999999
 30
0.0
 40
0.5
 50
180.0
 51
270.0
  0
ARC
  8
ITEM_50
 10
354.90134
 20
351.6527259999999
 30
0.0
 40
2.5
 50
270.0
 51
358.9879809999999
  0
ARC
  8
ITEM_50
 10
339.90134
 20
349.6527259999999
 30
0.0
 40
0.5
 50
270.0
 51
0.0
  0
ARC
  8
ITEM_50
 10
345.257942
 20
354.4027259999999
 30
0.0
 40
5.0
 50
90.0
 51
135.0
  0
LINE
  8
ITEM_50
 10
341.7224079999999
 20
357.93826
 30
0.0
 11
338.865806
 21
355.081658
 31
0.0
  0
LINE
  8
ITEM_50
 10
343.40134
 20
348.6527259999999
 30
0.0
 11
343.40134
 21
350.6527259999999
 31
0.0
  0
LINE
  8
ITEM_50
 10
342.40134
 20
351.6527259999999
 30
0.0
 11
340.90134
 21
351.6527259999999
 31
0.0
  0
LINE
  8
ITEM_50
 10
340.40134
 20
351.1527259999999
 30
0.0
 11
340.40134
 21
349.6527259999999
 31
0.0
  0
LINE
  8
ITEM_50
 10
339.90134
 20
349.1527259999999
 30
0.0
 11
339.90134
 21
349.1527259999999
 31
0.0
  0
ARC
  8
ITEM_50
 10
342.40134
 20
350.6527259999999
 30
0.0
 40
1.0
 50
0.0
 51
90.0
  0
ARC
  8
ITEM_50
 10
340.90134
 20
351.1527259999999
 30
0.0
 40
0.5
 50
90.0
 51
180.0
  0
ARC
  8
ITEM_50
 10
352.40134
 20
351.546124
 30
0.0
 40
5.0
 50
0.715601
 51
45.0
  0
ARC
  8
ITEM_50
 10
339.90134
 20
351.6527259999999
 30
0.0
 40
2.5
 50
181.012019
 51
270.0
  0
ARC
  8
ITEM_50
 10
342.40134
 20
351.546124
 30
0.0
 40
5.0
 50
135.0
 51
179.284399
  0
LINE
  8
ITEM_50
 10
345.257942
 20
359.4027259999999
 30
0.0
 11
349.5447379999999
 21
359.4027259999999
 31
0.0
  0
ARC
  8
ITEM_50
 10
341.90134
 20
348.6527259999999
 30
0.0
 40
1.5
 50
270.0
 51
0.0
  0
ARC
  8
ITEM_50
 10
352.90134
 20
348.6527259999999
 30
0.0
 40
1.5
 50
180.0
 51
270.0
  0
ARC
  8
ITEM_50
 10
313.90134
 20
351.1527259999999
 30
0.0
 40
0.5
 50
0.0
 51
90.0
  0
ARC
  8
ITEM_50
 10
312.40134
 20
350.6527259999999
 30
0.0
 40
1.0
 50
90.0
 51
180.0
  0
LINE
  8
ITEM_50
 10
314.90134
 20
349.1527259999999
 30
0.0
 11
314.90134
 21
349.1527259999999
 31
0.0
  0
LINE
  8
ITEM_50
 10
314.40134
 20
351.1527259999999
 30
0.0
 11
314.40134
 21
349.6527259999999
 31
0.0
  0
LINE
  8
ITEM_50
 10
312.40134
 20
351.6527259999999
 30
0.0
 11
313.90134
 21
351.6527259999999
 31
0.0
  0
LINE
  8
ITEM_50
 10
311.40134
 20
348.6527259999999
 30
0.0
 11
311.40134
 21
350.6527259999999
 31
0.0
  0
LINE
  8
ITEM_50
 10
313.0802719999999
 20
357.93826
 30
0.0
 11
315.9368739999999
 21
355.081658
 31
0.0
  0
ARC
  8
ITEM_50
 10
309.5447379999999
 20
354.4027259999999
 30
0.0
 40
5.0
 50
45.0
 51
90.0
  0
ARC
  8
ITEM_50
 10
314.90134
 20
349.6527259999999
 30
0.0
 40
0.5
 50
180.0
 51
270.0
  0
ARC
  8
ITEM_50
 10
314.90134
 20
351.6527259999999
 30
0.0
 40
2.5
 50
270.0
 51
358.9879809999999
  0
ARC
  8
ITEM_50
 10
299.90134
 20
349.6527259999999
 30
0.0
 40
0.5
 50
270.0
 51
0.0
  0
ARC
  8
ITEM_50
 10
305.257942
 20
354.4027259999999
 30
0.0
 40
5.0
 50
90.0
 51
135.0
  0
LINE
  8
ITEM_50
 10
301.7224079999999
 20
357.93826
 30
0.0
 11
298.865806
 21
355.081658
 31
0.0
  0
LINE
  8
ITEM_50
 10
303.40134
 20
348.6527259999999
 30
0.0
 11
303.40134
 21
350.6527259999999
 31
0.0
  0
LINE
  8
ITEM_50
 10
302.40134
 20
351.6527259999999
 30
0.0
 11
300.90134
 21
351.6527259999999
 31
0.0
  0
LINE
  8
ITEM_50
 10
300.40134
 20
351.1527259999999
 30
0.0
 11
300.40134
 21
349.6527259999999
 31
0.0
  0
LINE
  8
ITEM_50
 10
299.90134
 20
349.1527259999999
 30
0.0
 11
299.90134
 21
349.1527259999999
 31
0.0
  0
ARC
  8
ITEM_50
 10
302.40134
 20
350.6527259999999
 30
0.0
 40
1.0
 50
0.0
 51
90.0
  0
ARC
  8
ITEM_50
 10
300.90134
 20
351.1527259999999
 30
0.0
 40
0.5
 50
90.0
 51
180.0
  0
ARC
  8
ITEM_50
 10
312.40134
 20
351.546124
 30
0.0
 40
5.0
 50
0.715601
 51
45.0
  0
ARC
  8
ITEM_50
 10
299.90134
 20
351.6527259999999
 30
0.0
 40
2.5
 50
181.012019
 51
270.0
  0
ARC
  8
ITEM_50
 10
302.40134
 20
351.546124
 30
0.0
 40
5.0
 50
135.0
 51
179.284399
  0
LINE
  8
ITEM_50
 10
305.257942
 20
359.4027259999999
 30
0.0
 11
309.5447379999999
 21
359.4027259999999
 31
0.0
  0
ARC
  8
ITEM_50
 10
301.90134
 20
348.6527259999999
 30
0.0
 40
1.5
 50
270.0
 51
0.0
  0
ARC
  8
ITEM_50
 10
312.90134
 20
348.6527259999999
 30
0.0
 40
1.5
 50
180.0
 51
270.0
  0
ARC
  8
ITEM_50
 10
272.90134
 20
348.6527259999999
 30
0.0
 40
1.5
 50
180.0
 51
270.0
  0
ARC
  8
ITEM_50
 10
261.90134
 20
348.6527259999999
 30
0.0
 40
1.5
 50
270.0
 51
0.0
  0
LINE
  8
ITEM_50
 10
265.257942
 20
359.4027259999999
 30
0.0
 11
269.5447379999999
 21
359.4027259999999
 31
0.0
  0
ARC
  8
ITEM_50
 10
262.40134
 20
351.546124
 30
0.0
 40
5.0
 50
135.0
 51
179.284399
  0
ARC
  8
ITEM_50
 10
259.90134
 20
351.6527259999999
 30
0.0
 40
2.5
 50
181.012019
 51
270.0
  0
ARC
  8
ITEM_50
 10
272.40134
 20
351.546124
 30
0.0
 40
5.0
 50
0.715601
 51
45.0
  0
ARC
  8
ITEM_50
 10
260.90134
 20
351.1527259999999
 30
0.0
 40
0.5
 50
90.0
 51
180.0
  0
ARC
  8
ITEM_50
 10
262.40134
 20
350.6527259999999
 30
0.0
 40
1.0
 50
0.0
 51
90.0
  0
LINE
  8
ITEM_50
 10
259.90134
 20
349.1527259999999
 30
0.0
 11
259.90134
 21
349.1527259999999
 31
0.0
  0
LINE
  8
ITEM_50
 10
260.40134
 20
351.1527259999999
 30
0.0
 11
260.40134
 21
349.6527259999999
 31
0.0
  0
LINE
  8
ITEM_50
 10
262.40134
 20
351.6527259999999
 30
0.0
 11
260.90134
 21
351.6527259999999
 31
0.0
  0
LINE
  8
ITEM_50
 10
263.40134
 20
348.6527259999999
 30
0.0
 11
263.40134
 21
350.6527259999999
 31
0.0
  0
LINE
  8
ITEM_50
 10
261.7224079999999
 20
357.93826
 30
0.0
 11
258.865806
 21
355.081658
 31
0.0
  0
ARC
  8
ITEM_50
 10
265.257942
 20
354.4027259999999
 30
0.0
 40
5.0
 50
90.0
 51
135.0
  0
ARC
  8
ITEM_50
 10
259.90134
 20
349.6527259999999
 30
0.0
 40
0.5
 50
270.0
 51
0.0
  0
ARC
  8
ITEM_50
 10
274.90134
 20
351.6527259999999
 30
0.0
 40
2.5
 50
270.0
 51
358.9879809999999
  0
ARC
  8
ITEM_50
 10
274.90134
 20
349.6527259999999
 30
0.0
 40
0.5
 50
180.0
 51
270.0
  0
ARC
  8
ITEM_50
 10
269.5447379999999
 20
354.4027259999999
 30
0.0
 40
5.0
 50
45.0
 51
90.0
  0
LINE
  8
ITEM_50
 10
273.0802719999999
 20
357.93826
 30
0.0
 11
275.9368739999999
 21
355.081658
 31
0.0
  0
LINE
  8
ITEM_50
 10
271.40134
 20
348.6527259999999
 30
0.0
 11
271.40134
 21
350.6527259999999
 31
0.0
  0
LINE
  8
ITEM_50
 10
272.40134
 20
351.6527259999999
 30
0.0
 11
273.90134
 21
351.6527259999999
 31
0.0
  0
LINE
  8
ITEM_50
 10
274.40134
 20
351.1527259999999
 30
0.0
 11
274.40134
 21
349.6527259999999
 31
0.0
  0
LINE
  8
ITEM_50
 10
274.90134
 20
349.1527259999999
 30
0.0
 11
274.90134
 21
349.1527259999999
 31
0.0
  0
ARC
  8
ITEM_50
 10
272.40134
 20
350.6527259999999
 30
0.0
 40
1.0
 50
90.0
 51
180.0
  0
ARC
  8
ITEM_50
 10
273.90134
 20
351.1527259999999
 30
0.0
 40
0.5
 50
0.0
 51
90.0
  0
ARC
  8
ITEM_50
 10
248.40134
 20
348.1527259999999
 30
0.0
 40
1.0
 50
180.0
 51
270.0
  0
LINE
  8
ITEM_50
 10
247.40134
 20
362.1527259999999
 30
0.0
 11
247.40134
 21
358.4222869999999
 31
0.0
  0
ARC
  8
ITEM_50
 10
248.40134
 20
362.1527259999999
 30
0.0
 40
1.0
 50
90.0
 51
180.0
  0
LINE
  8
ITEM_50
 10
406.40134
 20
363.1527259999999
 30
0.0
 11
248.40134
 21
363.1527259999999
 31
0.0
  0
LINE
  8
ITEM_50
 10
248.40134
 20
347.1527259999999
 30
0.0
 11
261.90134
 21
347.1527259999999
 31
0.0
  0
LINE
  8
ITEM_50
 10
407.40134
 20
373.152726
 30
0.0
 11
247.40134
 21
373.152726
 31
0.0
  0
LINE
  8
ITEM_50
 10
247.40134
 20
373.152726
 30
0.0
 11
247.40134
 21
374.152726
 31
0.0
  0
LINE
  8
ITEM_50
 10
407.40134
 20
373.152726
 30
0.0
 11
407.40134
 21
374.152726
 31
0.0
  0
LINE
  8
ITEM_50
 10
263.40134
 20
373.152726
 30
0.0
 11
263.40134
 21
374.152726
 31
0.0
  0
LINE
  8
ITEM_50
 10
271.40134
 20
373.152726
 30
0.0
 11
271.40134
 21
374.152726
 31
0.0
  0
LINE
  8
ITEM_50
 10
311.40134
 20
373.152726
 30
0.0
 11
311.40134
 21
374.152726
 31
0.0
  0
LINE
  8
ITEM_50
 10
303.40134
 20
373.152726
 30
0.0
 11
303.40134
 21
374.152726
 31
0.0
  0
LINE
  8
ITEM_50
 10
383.40134
 20
373.152726
 30
0.0
 11
383.40134
 21
374.152726
 31
0.0
  0
LINE
  8
ITEM_50
 10
391.40134
 20
373.152726
 30
0.0
 11
391.40134
 21
374.152726
 31
0.0
  0
LINE
  8
ITEM_50
 10
351.40134
 20
373.152726
 30
0.0
 11
351.40134
 21
374.152726
 31
0.0
  0
LINE
  8
ITEM_50
 10
343.40134
 20
373.152726
 30
0.0
 11
343.40134
 21
374.152726
 31
0.0
  0
LINE
  8
ITEM_50
 10
417.40134
 20
363.152726
 30
0.0
 11
417.40134
 21
347.1527259999999
 31
0.0
  0
LINE
  8
ITEM_50
 10
417.40134
 20
363.1527259999999
 30
0.0
 11
418.40134
 21
363.1527259999999
 31
0.0
  0
LINE
  8
ITEM_50
 10
417.40134
 20
347.1527259999999
 30
0.0
 11
418.40134
 21
347.1527259999999
 31
0.0
  0
LINE
  8
ITEM_50
 10
417.40134
 20
357.6222869999999
 30
0.0
 11
418.40134
 21
357.6222869999999
 31
0.0
  0
LINE
  8
ITEM_50
 10
417.40134
 20
352.6222869999999
 30
0.0
 11
418.40134
 21
352.6222869999999
 31
0.0
  0
LINE
  8
ITEM_50
 10
247.40134
 20
337.152726
 30
0.0
 11
247.40134
 21
336.152726
 31
0.0
  0
LINE
  8
ITEM_50
 10
407.40134
 20
337.152726
 30
0.0
 11
247.40134
 21
337.152726
 31
0.0
  0
LINE
  8
ITEM_50
 10
407.40134
 20
337.152726
 30
0.0
 11
407.40134
 21
336.152726
 31
0.0
  0
LINE
  8
ITEM_50
 10
407.40134
 20
374.152726
 30
0.0
 11
247.40134
 21
374.152726
 31
0.0
  0
LINE
  8
ITEM_50
 10
418.40134
 20
363.152726
 30
0.0
 11
418.40134
 21
347.1527259999999
 31
0.0
  0
LINE
  8
ITEM_50
 10
407.40134
 20
336.152726
 30
0.0
 11
247.40134
 21
336.152726
 31
0.0
  0
LINE
  8
ITEM_50
 10
284.931778
 20
373.152726
 30
0.0
 11
284.931778
 21
374.152726
 31
0.0
  0
LINE
  8
ITEM_50
 10
289.931778
 20
373.152726
 30
0.0
 11
289.931778
 21
374.152726
 31
0.0
  0
LINE
  8
ITEM_50
 10
324.931778
 20
373.152726
 30
0.0
 11
324.931778
 21
374.152726
 31
0.0
  0
LINE
  8
ITEM_50
 10
329.931778
 20
373.152726
 30
0.0
 11
329.931778
 21
374.152726
 31
0.0
  0
LINE
  8
ITEM_50
 10
364.931778
 20
373.152726
 30
0.0
 11
364.931778
 21
374.152726
 31
0.0
  0
LINE
  8
ITEM_50
 10
369.9317779999999
 20
373.152726
 30
0.0
 11
369.931778
 21
374.152726
 31
0.0
  0
POINT
  8
ITEM_HILFE
 10
247.40134
 20
363.1527259999999
 30
0.0
  0
POINT
  8
ITEM_HILFE
 10
247.40134
 20
347.1527259999999
 30
0.0
  0
POINT
  8
ITEM_HILFE
 10
407.40134
 20
363.1527259999999
 30
0.0
  0
POINT
  8
ITEM_HILFE
 10
407.40134
 20
347.1527259999999
 30
0.0
  0
POINT
  8
ITEM_HILFE
 10
247.40134
 20
355.1527259999999
 30
0.0
  0
POINT
  8
ITEM_HILFE
 10
249.20134
 20
355.1527259999999
 30
0.0
  0
POINT
  8
ITEM_HILFE
 10
405.6013399999999
 20
355.1527259999999
 30
0.0
  0
POINT
  8
ITEM_HILFE
 10
407.40134
 20
355.1527259999999
 30
0.0
  0
POINT
  8
ITEM_HILFE
 10
267.40134
 20
347.1527259999999
 30
0.0
  0
POINT
  8
ITEM_HILFE
 10
287.40134
 20
347.1527259999999
 30
0.0
  0
POINT
  8
ITEM_HILFE
 10
307.40134
 20
347.1527259999999
 30
0.0
  0
POINT
  8
ITEM_HILFE
 10
327.40134
 20
347.1527259999999
 30
0.0
  0
POINT
  8
ITEM_HILFE
 10
347.40134
 20
347.1527259999999
 30
0.0
  0
POINT
  8
ITEM_HILFE
 10
367.40134
 20
347.1527259999999
 30
0.0
  0
POINT
  8
ITEM_HILFE
 10
267.40134
 20
351.6527259999999
 30
0.0
  0
POINT
  8
ITEM_HILFE
 10
307.40134
 20
351.6527259999999
 30
0.0
  0
POINT
  8
ITEM_HILFE
 10
347.40134
 20
351.6527259999999
 30
0.0
  0
POINT
  8
ITEM_HILFE
 10
287.40134
 20
348.9527259999999
 30
0.0
  0
POINT
  8
ITEM_HILFE
 10
327.40134
 20
348.9527259999999
 30
0.0
  0
POINT
  8
ITEM_HILFE
 10
367.40134
 20
348.9527259999999
 30
0.0
  0
POINT
  8
ITEM_HILFE
 10
387.40134
 20
351.6527259999999
 30
0.0
  0
POINT
  8
ITEM_HILFE
 10
387.40134
 20
347.1527259999999
 30
0.0
  0
ENDSEC
  0
EOF
